Chord Gitar Lagu Shine on Me Oleh Dan Auerbach

Lagu Shine on Me yang dinyanyikan oleh Dan Auerbach mungkin salah satu lagu favorit kamu. Selain menikmati musiknya, kamu juga bisa memainkan lagu tsb menggunakan gitar.

Perlu diketahui buat newbie, kunci jitu memainkan sebuah lagu dengan gitar yakni tahu kunci chord gitarnya.

Bila teman-teman lagi mencari kunci chord gitar untuk lagu “Shine on Me”, kamu sudah ada di halaman yang pas. Dengan kunci chord gitar ini, sobat dapat mainin lagu ini menggunakan gitar yang ada.

Chord lagu Shine on Me mempunyai irama dan termasuk dalam album “Waiting on a Song (2017)”.

Chord Gitar Shine on Me oleh Dan Auerbach

[Intro]


e|-----------------------------------------------|
B|-----------------------------------------------|
G|-----------------------------------------------|
D|-----------------------------------------------|
A|-----------------------------5-5-5-5-5---------|
E|--3-3-3-3-3------------------------------------|

(Guitar 2)


e|---5--5----5--5----3--3--3--3--3-------|--------3--3----5--5----5--5--5--5--5-------|
B|---7--7----5--5----3--3--3--3--3-------|--------3--3----5--5----7--7--7--7--7-------|
G|---7--7----6--6----4--4--4--4--4-------|--------4--4----6--6----7--7--7--7--7-------|
D|---7--7----7--7----5--5--5--5--5-------|--------5--5----7--7----7--7--7--7--7-------| x3
A|---5--5----7--7----5--5--5--5--5-------|--------5--5----7--7----5--5--5--5--5-------|
E|-----------5--5----3--3--3--3--3-------|--------3--3----5--5------------------------|

(Guitar 3)


e|-----2-------------3-----------------------------4-------------2-------------|
B|-----3-------2-----3-----------------------------4-------2-----3-------------|
G|-----2-------2-----4-----------------------------5-------2-----2-------------|
D|---0---------2-----5-------------------------------------2-------------------|
A|-----------0-------5----------------------------------0----------------------|
E|-------------------3--------------------------3------------------------------|
e|--2/3/2------------3-----------------------------4-------------2-------------|
B|--3/3/3------2-----3-----------------------------4-------2-----3-------------|
G|--2/4/2------2-----4-----------------------------5-------2-----2-------------|
D|-0-----------2-----5-------------------------------------2-------------------|
A|-----------0-------5----------------------------------0----------------------|
E|--------------------3--------------------------3------------------------------|

[Verse 1] There is not guitar in the verse, but the chord would remain more or less the same.

[D]You only [A]got a couple [G]miles to go
[G]If you’re [A]trying to d[D]rive me insane
[D]I saw you [A]crack a sm[G]ile about a week ago
[G]In the [A]middle of the [D]pouring rain

[Bridge 1]

I [G]climb the cliffs of dover to go [F#]drive out in the sun
[G]I’m like a four leaf clover cause I [F#]hide from every one

[Chorus 1] Played just like the intro.

[D]Shine [A]on m[G]e
[G]Shine [A]on m[D]e
[D]Shine [A]on [G]me
[G]Shine [A]on [D]me

(4th Guitar; Mark Knopfler)


e|-----------------------------------------------------------------------------------------10--|
B|-------12-------12-------12--------12-------12-------12/10-------12-------12-------12--------|
G|--9-11-----9-11-----9-11------9-11-----9-11-----9-11--------9-11-----9-11-----9-11-----------|
D|---------------------------------------------------------------------------------------------|
A|---------------------------------------------------------------------------------------------|
E|---------------------------------------------------------------------------------------------|

[Verse 2]

[D]When I ge[A]t up I gotta [G]get me a plan
[G]To do what[A]ever I can [D]I suppose
[D]I’m alread[A]y working [G]for my uncle sam
[G]You kno[A]w he’s got me [D]counting Cheerios

[Bridge 2]
Cr[G]ying on my shoulder, I’m [F#]allergic to the tears
[G]It’s tiring for this solider to [F#]pretend for all these years

[Chorus 2]

[D]Shine [A]on m[G]e
[G]Shine [A]on m[D]e
[D]Shine [A]on [G]me
[G]Shine [A]on [D]me

[Solo; Mark Knopfler]


e|------------------------------------------------------------|
B|------------------------------------------------------------|
G|---7-7-7-7-7---------9-9-9-7-7/9-7-7------------------------|
D|-------------9-9-7------------------------------------------| x2
A|------------------------------------------------------------|
E|------------------------------------------------------------|

[Bridge 3]
Go[G]tta keep my Ray-Bans on s[F#]o my eyes won’t burn
[G]If I can shed no light upon my [F#]number one concern

Baca juga:  Chord Gitar Lagu Isang Dangkal Oleh APO Hiking Society

[Chorus 3]

[D]Shine [A]on m[G]e
[G]Shine [A]on m[D]e
[D]Shine [A]on [G]me
[G]Shine [A]on [D]me

(4th Guitar; Mark Knopfler)


e|-----------------------------------------------------------------------------------------10--|
B|-------12-------12-------12--------12-------12-------12/10-------12-------12-------12--------|
G|--9-11-----9-11-----9-11------9-11-----9-11-----9-11--------9-11-----9-11-----9-11-----------|
D|---------------------------------------------------------------------------------------------|
A|---------------------------------------------------------------------------------------------|
E|---------------------------------------------------------------------------------------------|

[D]Shine [A]on m[G]e
[G]Shine [A]on m[D]e
[D]Shine [A]on [G]me
[G]Shine [A]on [D]me

[D]Shine [A]on m[G]e
[G]Shine [A]on m[D]e
[D]Shine [A]on [G]me
[G]Shine [A]on [D]me
***

Bila kamu kepingin mempelajari lagunya Dan Auerbach, termasuk chord gitar Shine on Me, kamu dapat belajar dengan melalui kursus, masuk sekolah musik, ikutan les privat bahkan dapat juga dengan cara otodidak.
Untuk dasarnya kamu bisa mempelajari C major, A major, G major, E major, and D major. Nah setelah paham kunci major maka untuk menggunakan kunci minor hanya perlu modif sedikit saja.

Jangan lupa terus berlatih memainkan chord gitar lagu Shine on Me. Pada awalnya mungkin tidak mudah, diharapkan setelah sering memainkan lagu tsb, kedepannya kamu bisa menaklukan semua lagu dari Dan Auerbach.

Btw, di tempat ini, sobat juga bisa mendapatkan chord lain, misalnya chord lagu jazz, chord lagu country, pop, rock, dll.

Bila kamu pengen mempelajari kunci chord gitar lagu lain, silahkan gunakan menu pencarian yang ada di website ini. Semoga bermanfaat …

Tinggalkan Balasan

Alamat email Anda tidak akan dipublikasikan.